ISO-10303-21;
HEADER;
FILE_DESCRIPTION (( 'STEP AP203' ),
    '1' );
FILE_NAME ('B270-RNDF-25.4-0.4.STEP',
    '2021-01-05T01:23:08',
    ( '' ),
    ( '' ),
    'SwSTEP 2.0',
    'SolidWorks 2020',
    '' );
FILE_SCHEMA (( 'CONFIG_CONTROL_DESIGN' ));
ENDSEC;

DATA;
#1 = ORIENTED_EDGE ( 'NONE', *, *, #138, .T. ) ;
#2 = ADVANCED_FACE ( 'NONE', ( #133 ), #121, .T. ) ;
#3 = CLOSED_SHELL ( 'NONE', ( #12, #2, #23, #109 ) ) ;
#4 = DIRECTION ( 'NONE',  ( 0.000000000000000000, 0.000000000000000000, 1.000000000000000000 ) ) ;
#5 = DIRECTION ( 'NONE',  ( -1.000000000000000000, -0.000000000000000000, -0.000000000000000000 ) ) ;
#6 = AXIS2_PLACEMENT_3D ( 'NONE', #116, #154, #104 ) ;
#7 = CARTESIAN_POINT ( 'NONE',  ( -1.187907395172932594E-15, 0.000000000000000000, 0.000000000000000000 ) ) ;
#8 = DATE_AND_TIME ( #22, #31 ) ;
#9 = EDGE_CURVE ( 'NONE', #105, #118, #80, .T. ) ;
#10 = CARTESIAN_POINT ( 'NONE',  ( 1.999999999999998224, 0.000000000000000000, 12.69999999999999929 ) ) ;
#11 = APPROVAL_DATE_TIME ( #130, #157 ) ;
#12 = ADVANCED_FACE ( 'NONE', ( #103 ), #152, .T. ) ;
#13 = CARTESIAN_POINT ( 'NONE',  ( 1.999999999999998224, 0.000000000000000000, 0.000000000000000000 ) ) ;
#14 = AXIS2_PLACEMENT_3D ( 'NONE', #151, #93, #94 ) ;
#15 = FACE_OUTER_BOUND ( 'NONE', #78, .T. ) ;
#16 = ORIENTED_EDGE ( 'NONE', *, *, #147, .F. ) ;
#17 = DATE_TIME_ROLE ( 'creation_date' ) ;
#18 = DIRECTION ( 'NONE',  ( 1.000000000000000000, 0.000000000000000000, 0.000000000000000000 ) ) ;
#19 = DIRECTION ( 'NONE',  ( -1.000000000000000000, -0.000000000000000000, -0.000000000000000000 ) ) ;
#20 = CC_DESIGN_PERSON_AND_ORGANIZATION_ASSIGNMENT ( #57, #24, ( #32 ) ) ;
#21 = PERSON ( 'UNSPECIFIED', 'UNSPECIFIED', 'UNSPECIFIED', ('UNSPECIFIED'), ('UNSPECIFIED'), ('UNSPECIFIED') ) ;
#22 = CALENDAR_DATE ( 2021, 5, 1 ) ;
#23 = ADVANCED_FACE ( 'NONE', ( #15 ), #166, .F. ) ;
#24 = PERSON_AND_ORGANIZATION_ROLE ( 'design_owner' ) ;
#25 = VECTOR ( 'NONE', #29, 1000.000000000000000 ) ;
#26 = COORDINATED_UNIVERSAL_TIME_OFFSET ( 8, 0, .AHEAD. ) ;
#27 = CC_DESIGN_DATE_AND_TIME_ASSIGNMENT ( #58, #112, ( #150 ) ) ;
#28 = EDGE_LOOP ( 'NONE', ( #50, #1 ) ) ;
#29 = DIRECTION ( 'NONE',  ( -1.000000000000000000, -0.000000000000000000, -0.000000000000000000 ) ) ;
#30 = DIRECTION ( 'NONE',  ( 0.000000000000000000, 0.000000000000000000, 1.000000000000000000 ) ) ;
#31 = LOCAL_TIME ( 9, 23, 8.000000000000000000, #100 ) ;
#32 = PRODUCT ( 'B270-RNDF-25.4-0.4', 'B270-RNDF-25.4-0.4', '', ( #145 ) ) ;
#33 = PERSON_AND_ORGANIZATION ( #21, #96 ) ;
#34 =( NAMED_UNIT ( * ) SI_UNIT ( $, .STERADIAN. ) SOLID_ANGLE_UNIT ( ) );
#35 = PERSON_AND_ORGANIZATION ( #21, #96 ) ;
#36 = AXIS2_PLACEMENT_3D ( 'NONE', #122, #5, #106 ) ;
#37 = ORIENTED_EDGE ( 'NONE', *, *, #83, .F. ) ;
#38 = VERTEX_POINT ( 'NONE', #131 ) ;
#39 = VERTEX_POINT ( 'NONE', #163 ) ;
#40 = APPROVAL_ROLE ( '' ) ;
#41 = APPROVAL_PERSON_ORGANIZATION ( #66, #157, #107 ) ;
#42 = DIRECTION ( 'NONE',  ( 0.000000000000000000, 0.000000000000000000, 1.000000000000000000 ) ) ;
#43 =( NAMED_UNIT ( * ) PLANE_ANGLE_UNIT ( ) SI_UNIT ( $, .RADIAN. ) );
#44 = CARTESIAN_POINT ( 'NONE',  ( 1.999999999999998224, 1.555301434917138433E-15, -12.69999999999999929 ) ) ;
#45 = SHAPE_DEFINITION_REPRESENTATION ( #149, #165 ) ;
#46 = ORIENTED_EDGE ( 'NONE', *, *, #9, .T. ) ;
#47 = EDGE_CURVE ( 'NONE', #118, #105, #132, .T. ) ;
#48 = CARTESIAN_POINT ( 'NONE',  ( 0.000000000000000000, 0.000000000000000000, 0.000000000000000000 ) ) ;
#49 = DATE_AND_TIME ( #102, #153 ) ;
#50 = ORIENTED_EDGE ( 'NONE', *, *, #147, .T. ) ;
#51 = APPROVAL ( #142, 'UNSPECIFIED' ) ;
#52 = APPROVAL_STATUS ( 'not_yet_approved' ) ;
#53 = CARTESIAN_POINT ( 'NONE',  ( -1.187907395172932594E-15, 0.000000000000000000, 0.000000000000000000 ) ) ;
#54 = APPROVAL_PERSON_ORGANIZATION ( #82, #51, #40 ) ;
#55 = EDGE_CURVE ( 'NONE', #118, #39, #67, .T. ) ;
#56 = CARTESIAN_POINT ( 'NONE',  ( 0.000000000000000000, 1.555301434917138433E-15, -12.69999999999999929 ) ) ;
#57 = PERSON_AND_ORGANIZATION ( #21, #96 ) ;
#58 = DATE_AND_TIME ( #161, #155 ) ;
#59 = PERSON_AND_ORGANIZATION ( #21, #96 ) ;
#60 = AXIS2_PLACEMENT_3D ( 'NONE', #144, #42, #99 ) ;
#61 = CC_DESIGN_PERSON_AND_ORGANIZATION_ASSIGNMENT ( #73, #113, ( #158 ) ) ;
#62 = ORIENTED_EDGE ( 'NONE', *, *, #47, .F. ) ;
#63 = PERSON_AND_ORGANIZATION_ROLE ( 'classification_officer' ) ;
#64 = ORIENTED_EDGE ( 'NONE', *, *, #83, .T. ) ;
#65 = ORIENTED_EDGE ( 'NONE', *, *, #9, .F. ) ;
#66 = PERSON_AND_ORGANIZATION ( #21, #96 ) ;
#67 = LINE ( 'NONE', #56, #98 ) ;
#68 = LINE ( 'NONE', #173, #25 ) ;
#69 = AXIS2_PLACEMENT_3D ( 'NONE', #53, #70, #30 ) ;
#70 = DIRECTION ( 'NONE',  ( -1.000000000000000000, -0.000000000000000000, -0.000000000000000000 ) ) ;
#71 = MANIFOLD_SOLID_BREP ( 'Ðý×', #3 ) ;
#72 = DIRECTION ( 'NONE',  ( 0.000000000000000000, 0.000000000000000000, -1.000000000000000000 ) ) ;
#73 = PERSON_AND_ORGANIZATION ( #21, #96 ) ;
#74 = ORIENTED_EDGE ( 'NONE', *, *, #55, .F. ) ;
#75 = AXIS2_PLACEMENT_3D ( 'NONE', #48, #137, #4 ) ;
#76 = EDGE_LOOP ( 'NONE', ( #74, #135, #64, #134 ) ) ;
#77 = APPROVAL_STATUS ( 'not_yet_approved' ) ;
#78 = EDGE_LOOP ( 'NONE', ( #65, #62 ) ) ;
#79 = DESIGN_CONTEXT ( 'detailed design', #88, 'design' ) ;
#80 = CIRCLE ( 'NONE', #14, 12.69999999999999929 ) ;
#81 = EDGE_LOOP ( 'NONE', ( #46, #91, #16, #37 ) ) ;
#82 = PERSON_AND_ORGANIZATION ( #21, #96 ) ;
#83 = EDGE_CURVE ( 'NONE', #105, #38, #68, .T. ) ;
#84 = PERSON_AND_ORGANIZATION_ROLE ( 'creator' ) ;
#85 = APPLICATION_PROTOCOL_DEFINITION ( 'international standard', 'config_control_design', 1994, #127 ) ;
#86 = AXIS2_PLACEMENT_3D ( 'NONE', #7, #172, #123 ) ;
#87 = COORDINATED_UNIVERSAL_TIME_OFFSET ( 8, 0, .AHEAD. ) ;
#88 = APPLICATION_CONTEXT ( 'configuration controlled 3d designs of mechanical parts and assemblies' ) ;
#89 = COORDINATED_UNIVERSAL_TIME_OFFSET ( 8, 0, .AHEAD. ) ;
#90 = CC_DESIGN_SECURITY_CLASSIFICATION ( #150, ( #158 ) ) ;
#91 = ORIENTED_EDGE ( 'NONE', *, *, #55, .T. ) ;
#92 = PRODUCT_DEFINITION ( 'UNKNOWN', '', #158, #79 ) ;
#93 = DIRECTION ( 'NONE',  ( -1.000000000000000000, -0.000000000000000000, -0.000000000000000000 ) ) ;
#94 = DIRECTION ( 'NONE',  ( 0.000000000000000000, 0.000000000000000000, 1.000000000000000000 ) ) ;
#95 = CC_DESIGN_PERSON_AND_ORGANIZATION_ASSIGNMENT ( #35, #63, ( #150 ) ) ;
#96 = ORGANIZATION ( 'UNSPECIFIED', 'UNSPECIFIED', '' ) ;
#97 = APPLICATION_PROTOCOL_DEFINITION ( 'international standard', 'config_control_design', 1994, #88 ) ;
#98 = VECTOR ( 'NONE', #129, 1000.000000000000000 ) ;
#99 = DIRECTION ( 'NONE',  ( 1.000000000000000000, 0.000000000000000000, 0.000000000000000000 ) ) ;
#100 = COORDINATED_UNIVERSAL_TIME_OFFSET ( 8, 0, .AHEAD. ) ;
#101 = LOCAL_TIME ( 9, 23, 8.000000000000000000, #156 ) ;
#102 = CALENDAR_DATE ( 2021, 5, 1 ) ;
#103 = FACE_OUTER_BOUND ( 'NONE', #81, .T. ) ;
#104 = DIRECTION ( 'NONE',  ( -0.000000000000000000, 0.000000000000000000, 1.000000000000000000 ) ) ;
#105 = VERTEX_POINT ( 'NONE', #10 ) ;
#106 = DIRECTION ( 'NONE',  ( 0.000000000000000000, 0.000000000000000000, 1.000000000000000000 ) ) ;
#107 = APPROVAL_ROLE ( '' ) ;
#108 = DIRECTION ( 'NONE',  ( 0.000000000000000000, 0.000000000000000000, 1.000000000000000000 ) ) ;
#109 = ADVANCED_FACE ( 'NONE', ( #126 ), #110, .F. ) ;
#110 = PLANE ( 'NONE',  #119 ) ;
#111 = CALENDAR_DATE ( 2021, 5, 1 ) ;
#112 = DATE_TIME_ROLE ( 'classification_date' ) ;
#113 = PERSON_AND_ORGANIZATION_ROLE ( 'design_supplier' ) ;
#114 = PRODUCT_RELATED_PRODUCT_CATEGORY ( 'detail', '', ( #32 ) ) ;
#115 = APPROVAL_DATE_TIME ( #49, #117 ) ;
#116 = CARTESIAN_POINT ( 'NONE',  ( 1.999999999999999112, 12.69999999999999929, 0.000000000000000000 ) ) ;
#117 = APPROVAL ( #77, 'UNSPECIFIED' ) ;
#118 = VERTEX_POINT ( 'NONE', #44 ) ;
#119 = AXIS2_PLACEMENT_3D ( 'NONE', #124, #18, #72 ) ;
#120 = AXIS2_PLACEMENT_3D ( 'NONE', #13, #19, #108 ) ;
#121 = CYLINDRICAL_SURFACE ( 'NONE', #75, 12.69999999999999929 ) ;
#122 = CARTESIAN_POINT ( 'NONE',  ( 0.000000000000000000, 0.000000000000000000, 0.000000000000000000 ) ) ;
#123 = DIRECTION ( 'NONE',  ( 0.000000000000000000, 0.000000000000000000, 1.000000000000000000 ) ) ;
#124 = CARTESIAN_POINT ( 'NONE',  ( -5.939536975864662969E-16, 12.69999999999999929, 0.000000000000000000 ) ) ;
#125 = CIRCLE ( 'NONE', #69, 12.69999999999999929 ) ;
#126 = FACE_OUTER_BOUND ( 'NONE', #28, .T. ) ;
#127 = APPLICATION_CONTEXT ( 'configuration controlled 3d designs of mechanical parts and assemblies' ) ;
#128 = DATE_AND_TIME ( #111, #101 ) ;
#129 = DIRECTION ( 'NONE',  ( -1.000000000000000000, -0.000000000000000000, -0.000000000000000000 ) ) ;
#130 = DATE_AND_TIME ( #160, #141 ) ;
#131 = CARTESIAN_POINT ( 'NONE',  ( -1.187907395172932594E-15, 0.000000000000000000, 12.69999999999999929 ) ) ;
#132 = CIRCLE ( 'NONE', #120, 12.69999999999999929 ) ;
#133 = FACE_OUTER_BOUND ( 'NONE', #76, .T. ) ;
#134 = ORIENTED_EDGE ( 'NONE', *, *, #138, .F. ) ;
#135 = ORIENTED_EDGE ( 'NONE', *, *, #47, .T. ) ;
#136 =( GEOMETRIC_REPRESENTATION_CONTEXT ( 3 ) GLOBAL_UNCERTAINTY_ASSIGNED_CONTEXT ( ( #164 ) ) GLOBAL_UNIT_ASSIGNED_CONTEXT ( ( #140, #43, #34 ) ) REPRESENTATION_CONTEXT ( 'NONE', 'WORKASPACE' ) );
#137 = DIRECTION ( 'NONE',  ( -1.000000000000000000, -0.000000000000000000, -0.000000000000000000 ) ) ;
#138 = EDGE_CURVE ( 'NONE', #39, #38, #170, .T. ) ;
#139 = APPROVAL_DATE_TIME ( #128, #51 ) ;
#140 =( LENGTH_UNIT ( ) NAMED_UNIT ( * ) SI_UNIT ( .MILLI., .METRE. ) );
#141 = LOCAL_TIME ( 9, 23, 8.000000000000000000, #87 ) ;
#142 = APPROVAL_STATUS ( 'not_yet_approved' ) ;
#143 = CC_DESIGN_APPROVAL ( #157, ( #158 ) ) ;
#144 = CARTESIAN_POINT ( 'NONE',  ( 0.000000000000000000, 0.000000000000000000, 0.000000000000000000 ) ) ;
#145 = MECHANICAL_CONTEXT ( 'NONE', #127, 'mechanical' ) ;
#146 = SECURITY_CLASSIFICATION_LEVEL ( 'unclassified' ) ;
#147 = EDGE_CURVE ( 'NONE', #38, #39, #125, .T. ) ;
#148 = PERSON_AND_ORGANIZATION ( #21, #96 ) ;
#149 = PRODUCT_DEFINITION_SHAPE ( 'NONE', 'NONE',  #92 ) ;
#150 = SECURITY_CLASSIFICATION ( '', '', #146 ) ;
#151 = CARTESIAN_POINT ( 'NONE',  ( 1.999999999999998224, 0.000000000000000000, 0.000000000000000000 ) ) ;
#152 = CYLINDRICAL_SURFACE ( 'NONE', #36, 12.69999999999999929 ) ;
#153 = LOCAL_TIME ( 9, 23, 8.000000000000000000, #89 ) ;
#154 = DIRECTION ( 'NONE',  ( -1.000000000000000000, 0.000000000000000000, -0.000000000000000000 ) ) ;
#155 = LOCAL_TIME ( 9, 23, 8.000000000000000000, #26 ) ;
#156 = COORDINATED_UNIVERSAL_TIME_OFFSET ( 8, 0, .AHEAD. ) ;
#157 = APPROVAL ( #52, 'UNSPECIFIED' ) ;
#158 = PRODUCT_DEFINITION_FORMATION_WITH_SPECIFIED_SOURCE ( 'ANY', '', #32, .NOT_KNOWN. ) ;
#159 = CC_DESIGN_APPROVAL ( #51, ( #92 ) ) ;
#160 = CALENDAR_DATE ( 2021, 5, 1 ) ;
#161 = CALENDAR_DATE ( 2021, 5, 1 ) ;
#162 = CC_DESIGN_PERSON_AND_ORGANIZATION_ASSIGNMENT ( #148, #175, ( #158 ) ) ;
#163 = CARTESIAN_POINT ( 'NONE',  ( -1.187907395172932594E-15, 1.555301434917138433E-15, -12.69999999999999929 ) ) ;
#164 = UNCERTAINTY_MEASURE_WITH_UNIT (LENGTH_MEASURE( 1.000000000000000082E-05 ), #140, 'distance_accuracy_value', 'NONE');
#165 = ADVANCED_BREP_SHAPE_REPRESENTATION ( 'B270-RNDF-25.4-0.4', ( #71, #60 ), #136 ) ;
#166 = PLANE ( 'NONE',  #6 ) ;
#167 = APPROVAL_PERSON_ORGANIZATION ( #59, #117, #174 ) ;
#168 = CC_DESIGN_PERSON_AND_ORGANIZATION_ASSIGNMENT ( #33, #84, ( #92 ) ) ;
#169 = CC_DESIGN_APPROVAL ( #117, ( #150 ) ) ;
#170 = CIRCLE ( 'NONE', #86, 12.69999999999999929 ) ;
#171 = CC_DESIGN_DATE_AND_TIME_ASSIGNMENT ( #8, #17, ( #92 ) ) ;
#172 = DIRECTION ( 'NONE',  ( -1.000000000000000000, -0.000000000000000000, -0.000000000000000000 ) ) ;
#173 = CARTESIAN_POINT ( 'NONE',  ( 0.000000000000000000, 0.000000000000000000, 12.69999999999999929 ) ) ;
#174 = APPROVAL_ROLE ( '' ) ;
#175 = PERSON_AND_ORGANIZATION_ROLE ( 'creator' ) ;
ENDSEC;
END-ISO-10303-21;
